[公众号分析平台]
详情/百姓大公报/
百姓大公报
微信号:
--
功能介绍:
报道社会事件,监督社会现象
帐号主体:
个人
分类:
时事资讯
小宝指数:
--
预估粉丝数:
8726
更新于2019-06-17 12:46:35
概况

账号主体

聂**

公众号总数

828

预估粉丝总数

143万
公众号详情
公众号总排名
分类排名头条平均阅读数
头条平均点赞数
小宝指数
预估粉丝数
二维码
malabiao
----5095966--66万
----326558--2万
二维码
baishitongnx
12578781278511329.622万
----27698--2万
14639866193446318.911万
----18821--1万
----18312--1万
----109026--8726
----9616--6728
261295199182280.266426
----7782--5451
----7366--5153
----73617--5152
20057--7346298.005144
二维码
whsandian
----7277--5092
二维码
naotaitao66
----5618--3371
二维码
ybxx2016
----5204--3123
----4985--2989
----4963--2977
二维码
kelemeishihui
----4911--2949
二维码
huansharumeng
----48535--2914
二维码
zsyj668999
----4829--2892
----4802--2880
二维码
zhibishuoqing
----4751--2852
----47343--2842
二维码
diyifanquan
----46910--2816
二维码
SFwineshop
----4485--2691
35804--4386246.502632
二维码
bmys0539
----4176--2502
二维码
gh_4610bf4b89be
----4161--2498
二维码
xiaotao379
----4118--2468
----4022--2413
----3944--2366
----38516--2312
二维码
wxhongqi520
----3667--2196
----3621--2176
二维码
chaoliukanshu
----3533--2120
----3342--2008
----3203--1924
二维码
AZR234
----3141--1884
二维码
uncle-guguai
----30316--1822
----2992--1498
----2982--1493
----2953--1478
----2822--1413
----2812--1407
二维码
langzoooo
----2714--1357
二维码
lqyj2014
1176528982547266.681272
二维码
chanmuyu
----25019--1252
----2441--1224
----2442--1222
二维码
fuxichuanqi
----22811--1141
二维码
aa524410
39600--2211252.251105
----2202--1102
----2195--1099
二维码
xin15130194910
----2062--1031
二维码
gh_dcd1ce77114b
----2061--1030
----2045--1020
----201----1006
二维码
xu524410
39637--1972251.92987
----1842--921
二维码
gh_42cc733d7fa0
----1552--831
----1509--752
----1479--737
----1472--736
----1433--719
----1331--667
----1321--660
----1272--635
----1183--593
二维码
haolaoshi--jiaoyu
----1101--552
----11016--550
----1093--547
二维码
xiaoyuanyingping
15188--1032216.61518
----1001--502
----973--487
二维码
HMZX1188
----964--480
----943--470
----921--464
二维码
xzaqgs123
37159--921253.51461
二维码
dai_Professor
----921--461
15238978872219.18438
二维码
ejnqslgajdj
----811--407
----79----396
----745--372
二维码
gxrclt2013
----662--330
----6612--330
----651--325
----641--323
----614--307
----601--300
----591--298
----582--290
----551--275
----524--261
二维码
Pearlyn-7-
----515--256
----503--252
----501--251
----495--247
二维码
gh_7cac9af910f5
----471--237
二维码
gh_db4130b5f13f
----471--235
二维码
gh_2bd2f1a46297
----441--224
----443--220
----422222.01210
----391--195
二维码
gh_0b4b4e8aa385
----36----180
----351--178
二维码
aren18621731518
----359--175
二维码
jzsk17607968578
----342--170
----32----161
----311--157
二维码
gh_a6c4667e4206
----292--148
二维码
ALN-2019
----284--144
----281--141
二维码
YingcaiOnline
----27----135
----264--133
----261--132
----262--132
二维码
huoxingbaguaju
----254--128
二维码
N18520212391
----25----126
二维码
a_charming_lady
----24----121
二维码
flimbook
----243--121
----232--115
----223--114
----213--105
----211--105
----201--101
二维码
boyinqipashuo
----191--97
----181--93
----181--91
----162--81
----15----78
二维码
shwenxinjiayuan
----152--75
----142--70
----141--70
二维码
fuqinadianshi01
----131--50
二维码
gh_98bb1590c628
----131--65
----121--64
----12----62
----125--62
二维码
a13165978055
----121--61
----11----57
二维码
mizhijunlian520
----102--51
二维码
ZiguanggeHotel
----101--51
----103--50
----94--47
二维码
jingjing1314andy
----9----47
----9----45
二维码
lishi8341
----8----40
----72--38
----72--38
----7----37
----75--37
二维码
yqjs_china
----7----35
二维码
BigDataAndBlockchain
----6----34
----61--33
----61--32
----6----32
----61--31
----5----29
----51--28
----52--25
----5----25
----41--24
二维码
a15390893612
----4----23
二维码
zhi-yuan888
----4----22
----41--21
----4----20
----3----18
----31--17
----3----16
----3----16
----3----15
二维码
nab-100624
----21--13
二维码
lv_dayingtao
----2----13
----21--12
----2----12
----21--11
二维码
InsurKeyboardWarrior
----23--10
----2----10
----2----10
二维码
Live-aloneYouth
----2----10
----2----10
二维码
mengxianglianxi
----2----10
----2----10
----1----8
----1----7
----1----7
----1----6
----1----6
----1----5
----1----5
----1----5
----1----5
----1----5
二维码
jm_0512popo
----1----5
----1----5
----1----5
----1----5
----11--5
----1----5
----------2
二维码
TST-TC0131
------------
------------
------1--18
------------
二维码
FACE-FARM
------------
------------
------------
------------
------------
------------
------1--6797
------------
------------
二维码
NIE598833565
------------
------------
------22--3249
------------
------------
------------
------------
------------
------------
------------
------------
------------
------------
------------
------------
------------
------------
------------
------------
------------
------------
------------
------------
------------
------------
------------
------------
------------
------------
------------
------------
------------
二维码
Anshan9
------------
------------
------------
------------
------------
------------
------1--106
二维码
Taizhous
------------
------------
------------
------------
----------45
------------
二维码
haoxd512
------1--21
------------
------8--6167
------------
------------
二维码
yimoyangguang97
------------
------------
------------
----------15
二维码
blockchain2022
------3--2092
------------
------------
------------
------------
二维码
cyjsd8
------------
------------
二维码
TANGTAI88888
------4--2462
------------
------2--25
----------35
----------20
二维码
heymkt
------71--4万
二维码
shh_ys
------113----
二维码
Sunflower8884
------------
------1--255
二维码
qicaiku
------22--2万
二维码
bf6459
29197----2258.641082
------------
------------
------------
二维码
CTMS_tengfei
------------
二维码
huanqiuchaobaoweixin
------------
二维码
tianxiasanwen
------------
二维码
woqu-s
------------
------------
二维码
kaijiantuancao
------------
二维码
www_liuyuexue_net
------------
------------
二维码
nomotouzi
------------
二维码
xingaijk
------------
------------
------------
二维码
lidongquanweixin
------------
二维码
mentubobo
------------
------------
------------
二维码
thetmeple
------------
二维码
meishiStyle
------------
------------
二维码
dianyingmeijie92
------------
------------
------------
二维码
Nigelxiaoguai
------------
------------
二维码
ewenzhai
------------
------------
二维码
shentongkoucai
------------
------------
二维码
tupiandali
------13--1040
二维码
yuanqinwxs
------------
------------
------------
------------
二维码
dushiYY
------------
二维码
qichexiaozhushouwx
------------
二维码
bibixiong2014
------------
二维码
qq_baby8
------------
------------
二维码
gh_fe734c5b05f1
------------
二维码
feibangfeizhai
------------
二维码
AmazonCtu2
------------
二维码
xianzhenyuanaijia
------------
------------
------------
------------
二维码
yueweijiyong
------------
二维码
niejiansheng32566978
------2--1226
------------
------------
二维码
mkdspeter
------52--2万
------------
------------
------------
------------
------------
------------
------------
------------
------------
------------
------------
------------
二维码
zcza1069
------------
------------
------7--90
------------
------------
二维码
XBXJ-2018
------------
------------
------------
------25--1万
二维码
gh_3501496db3f4
------------
二维码
gh_30fe47f848cc
------------
二维码
yichushouzuo
------1--274
二维码
xiaoqiang______--_--
------------
------------
------------
二维码
zzxmf_com
------------
------------
------------
------------
------------
------------
------------
------------
------------
------4--5054
------5--96
------------
二维码
fengmixian
------1--12
------------
------------
------------
----------92
----------3
------------
------------
二维码
wyrz13706339493
------------
------------
------1--15
------------
------------
------------
------------
------------
------------
------------
------5--183
二维码
tqc_xiuwen
----------37
------------
------------
------------
二维码
zhufu_mumu
------------
------------
------------
------1--26
------1--155
------------
----------11
------------
------2--75
------------
------------
二维码
IndieLawView
------------
二维码
yxiaojiaoliu
------2--210
------------
------------
------------
二维码
nanqiuxiaosheng
------------
------1--370
二维码
heyueguo2020
------------
------35--4万
------------
二维码
weimeiersheng520
------------
二维码
jingneinet
------13--1万
------1--622
----------17
二维码
renjianfojiao
------13--2050
------------
------------
------------
------------
二维码
F033sheying
------------
------2--105
------------
二维码
heysofun
------7--170
二维码
chaoshengshibei666
------18--5411
------------
------3--8344
------------
------------
------------
------------
------------
二维码
gaoanhuoche520
------------
二维码
mczdwxh
------------
二维码
xinghuocaoyuan108
------------
------------
二维码
DXBST666
------------
------------
------------
------------
------------
------------
------------
二维码
chaofanshuo
------------
------------
------------
------------
------3--217
二维码
Tian-19951109
------------
------7--168
------------
------------
------------
------------
------------
二维码
BlockchainCandyBox
------------
------------
------------
二维码
yuzhaoxindajiankang
------------
------------
二维码
nie-zheng-fei
------6--271
------1--20
二维码
gossiping_cat
------------
----------5
------------
二维码
top767676
------------
------------
------------
------3--86
------------
------------
------------
二维码
changde_zyq
------1--15
------4--32
------------
------------
------------
------------
------------
------------
二维码
Alibabababa_china
------1--25
二维码
dongxie-diary
------4--190
二维码
hrz13706339493
------------
------------
------------
------------
二维码
Literary-Bacteria
------------
------------
------6--9
------------
二维码
qq996102919
------------
----------77
------2--50
----------5
------------
------------
------------
------------
------------
------------
------1--10
二维码
DFC2018168
------7--5460
二维码
zheyan-nhz
------------
二维码
NWJ900813
----------12
------------
二维码
Dongguan6
------------
------------
------------
------10--334
----------10
------1--46
二维码
fwzy7791
------------
二维码
yugaopianshijie
------2--8988
二维码
jjdd205
----------5
------------
------1--16
------------
------------
------1--436
------------
二维码
cangwu114
------------
------------
------------
------2--949
二维码
yuwen20162016
------1--495
二维码
enjoy-offroad-zone
------3--128
二维码
gh_d9084356ccd4
------------
------1--285
------------
二维码
sjzyyek2014
------7--696
------------
------------
二维码
yinmixiaoshipin
------------
二维码
yimifacai
------------
------1--5
------------
------------
二维码
taoqchongzhi
------------
二维码
niezhaicun
------------
------------
------19--1万
------------
------------
------------
------------
------18--1万
------------
------------
------------
------------
------------
------------
二维码
verselet_neo
------------
----------2
------------
二维码
v9527-0419
------------
二维码
T5group
------------
------------
------------
------------
------------
------------
二维码
yujiyingkou
------------
二维码
wenjingspace9
------------
------------
------------
------------
------------
------------
------------
------------
------------
------------
------------
------------
------------
------------
------------
------------
------------
------------
------------
二维码
Qshuny
------------
二维码
njwA888
------------
------------
------------
------------
------------
------------
------------
二维码
Time_Poem
------1--10
------------
------------
------------
------------
二维码
Dongguanw
------------
------5--22
------------
------------
------------
------------
------------
------------
二维码
AA1224657263
------------
------------
二维码
yiyoumanjia
------4--365
二维码
youyouear
------------
二维码
QQ129797
------2--815
二维码
rzgw13706339493
------------
二维码
zhaopianshu--dingzhi
------------
------------
------------
------------
------------
------2--365
------9--144
二维码
gh_ccecc323f95e
------------
二维码
xinmengdushu
------2--28
二维码
pft555
------------
------------
------1--10
------20--9700
二维码
liyu0000622
------------
------------
------22--2万
二维码
zpn999999
------40--2万
------------
二维码
A13065749951
------15--577
------------
二维码
babyqi-xingfu
------2--68
------------
二维码
chongqlmz
------------
------------
------------
------------
------------
------------
------4--1万
二维码
nietalk
------------
------------
------7----
------3--407
------35--1万
------3--2万
二维码
zpn27319633
------36--1万
二维码
xwxgn-0794-4331717
------------
------------
------------
------------
------------
------1--117
------------
------------
------1--13
------------
------------
------------
------------
------1--150
------------
二维码
ximimiwu
------------
------------
------------
------------
----------17
------------
------------
------------
------------
二维码
General-note
------------
二维码
Jerry2532
------------
------------
------6--15
------------
二维码
coinpasture
----------5
------------
------------
----------6
------------
------1--53
------------
------------
------------
------------
------------
------------
------------
------------
二维码
turk-malliri
------------
二维码
daneeandmark
------------
----------5
二维码
XIanfang360
------2--1303
------------
----------22
------77--1万
二维码
shiyitanya
------6--86
------------
二维码
woshilxna
------22--737
------2--124
二维码
dapeijiang
------3--2万
------------
二维码
idongbei
------------
二维码
UclassPPT
------------
------------
二维码
yebanqingganxiantan
----------5
二维码
JianTk666
------------
----------5
------4--953
----------7
------15--1万
------------
------------
------------
----------52
------------
----------27
----------10
------1--22
--------217.0030
二维码
meishi_dby
------124----
二维码
gh_36efabead9c0
------37--6972
二维码
ppmsh-N
------------
二维码
lymcayf
------------
------------
------------
------------
------------
------------
------------
------------
二维码
hwf789789
------3--196
------------
------------
------------
------------
------------
------------
------------
------------
二维码
changtaohui-yuedu
------19--2360
------------
------------
二维码
LeftBank2018
------7--257
------------
------------
------------
------------
二维码
dxrmyy-zyk
------1--67
------------
------------